"I Can't Tell You Why" solo

(/) Slide Up  (\) Slide Down  (h) Hammer On  (p) Pull Off  (b) Bend (r) Release (v) Vibrato
E|------------------------------------|--
B|------------------------------------|--
G|------------------------------------|--
D|------------------------------------|--
A|--------5--7---------------5--7-----|--
E|--7--9--------7------7--9--------7--|--



E|----------------------------------------------------|----------------------------------
B|----------------------------------------------------|---------------10b12b10-----7-----
G|----------------------------------------------------|------------7------------9--------
D|------------------9v--h7----------------------------|------7--9------------------------
A|--------5--7/9------------9----9\5--7\2--0--1/2v----|--\9------------------------------
E|--7--9----------------------------------------------|----------------------------------



E|---------------------------------------------12----------------------------------------------------
B|------------10b12r10-----7------------10b12------12r10---------------------------------------------
G|--9b10r9h7------------9-----9b10r9h7--------------------9--7-------9--9b10r9h7--9b10----9b10h7-----
D|--------------------------------------------------------------9---------------------------------9--
A|---------------------------------------------------------------------------------------------------
E|---------------------------------------------------------------------------------------------------
http://www.guitartabcreator.com
Guitar Tab Creator is intended to store guitar tab created through the tool. It currently does not support in-line text editing. Any text you place in here will be lost. If you need to comment on your tab, please use the "Tab Notes" section located below.