Three Blind Mice

(/) Slide Up  (\) Slide Down  (h) Hammer On  (p) Pull Off  (b) Bend (r) Release (v) Vibrato

E|-----------------------------------------------------------------------------------------------
B|-----------------------------------------------------------------------------------------------
G|-----------------------------------------------2--2--1-----1--2-----------2--2--1-----1--2-----
D|--------------------2--0--0-----2--0--0-----2-----------4--------2--2--2-----------4-----------
A|--4--2--0--4--2--0-----------4-----------4-----------------------------------------------------
E|-----------------------------------------------------------------------------------------------



E|-----------------------------
B|-----------------------------
G|-----------------------------
D|--2--2--0--------------------
A|-----------4--2--0--4--2--0--
E|-----------------------------
http://www.guitartabcreator.com
Guitar Tab Creator is intended to store guitar tab created through the tool. It currently does not support in-line text editing. Any text you place in here will be lost. If you need to comment on your tab, please use the "Tab Notes" section located below.