Life Goes On

(/) Slide Up  (\) Slide Down  (h) Hammer On  (p) Pull Off  (b) Bend (r) Release (v) Vibrato

STANDARD TUNING / 3RD FRET CAPO

e|--------------------------------------------------
B|--------0-----------0-----------0-----------------
G|-----0-----------0-----------0--------------------
D|---------0h2-----------0-----------------------0-- X2
A|-----------------------------------2-----0--2-----
E|--3-----3-----3-----3-----3-----3-----3-----3-----

--------0-----------0-----------0-----------0-----
-----1-----------1-----------1-----------1--------
-----------2-----------0-----------------------0--
-----------------------------------4--------------
--3-----3-----3-----3-----3-----3-----------3-----
--------------------------------------3-----------
http://www.guitartabcreator.com
Guitar Tab Creator is intended to store guitar tab created through the tool. It currently does not support in-line text editing. Any text you place in here will be lost. If you need to comment on your tab, please use the "Tab Notes" section located below.