Pentatonic Sequence 1

(/) Slide Up  (\) Slide Down  (h) Hammer On  (p) Pull Off  (b) Bend (r) Release (v) Vibrato


E|-----------------------------------------------------------------------------------
B|-----------------------------------------------------------------------------------
G|---------------------------------------------------------------12h14p12------------
D|------------------------------------12h14p12------------12h14------------14p12h14--
A|---------12h14p12------------12h14------------14p12h14-----------------------------
E|--12h15------------15p12h15--------------------------------------------------------



E|------------------------------------12h15p12--------------------------------------------------
B|---------12h15p12------------12h15------------15p12------------12h15p12-----------------------
G|--12h14------------14p12h14--------------------------14p12h14------------14p12----------------
D|--------------------------------------------------------------------------------14p12--12h14--
A|----------------------------------------------------------------------------------------------
E|----------------------------------------------------------------------------------------------



E|----------------------------------------------------------|--
B|----------------------------------------------------------|--
G|--12h14p12------------------------------------------------|--
D|------------14p12----------------12h14p12-----------------|--
A|-------------------14p12--12h14------------14p12----------|--
E|--------------------------------------------------15p12v--|--
http://www.guitartabcreator.com
Guitar Tab Creator is intended to store guitar tab created through the tool. It currently does not support in-line text editing. Any text you place in here will be lost. If you need to comment on your tab, please use the "Tab Notes" section located below.