IT Theme song

(/) Slide Up  (\) Slide Down  (h) Hammer On  (p) Pull Off  (b) Bend (r) Release (v) Vibrato

E|--11--8---------11--9-----------------2h3h4h5h6/8----------------11--9-----------------------------
B|---------9--13---------6--5--4--5--6----------------------9--13---------13--11--6--8--9------------
G|---------------------------------------------------8p7h8---------------------------------6h7h8/10--
D|---------------------------------------------------------------------------------------------------
A|---------------------------------------------------------------------------------------------------
E|---------------------------------------------------------------------------------------------------



E|-------------------------------------
B|--13p12h13--12\11\10--13p12h13--12v--
G|-------------------------------------
D|-------------------------------------
A|-------------------------------------
E|-------------------------------------



E|------------------------------------------------------
B|------------------------------------------------------
G|------------------------------------------------------
D|------------------------------------------------------
A|------------------------------------------------------
E|--4--8--11--13--11--9--8--4--8--11--9--8--6--1--3--4--
http://www.guitartabcreator.com
Guitar Tab Creator is intended to store guitar tab created through the tool. It currently does not support in-line text editing. Any text you place in here will be lost. If you need to comment on your tab, please use the "Tab Notes" section located below.