Life Sucks After College

(/) Slide Up  (\) Slide Down  (h) Hammer On  (p) Pull Off  (b) Bend (r) Release (v) Vibrato


E|-----------------
B|-----------------
G|-----------------
D|--7--10----------
A|--5--8---10--10--
E|---------8---8---



E|-----------------------------
B|-----------------------------
G|-----------------------------
D|--7------------7-----10--10--
A|--5--8--7--10--5--8--8---7---
E|-----6--5--8------6----------



E|-----------------------------------------------------------------
B|-----------------------------------------------------------------
G|-----------------------------------------------------------------
D|-------7-----7---------5-----5-------------------------7-----7---
A|-5-5-5---5-5---5-6-6-6---6-6---6-------8-----8---8-8-8---8-8---8-
E|---------------------------------6-6-6---6-6---6-----------------



E|-------------------------------------------------------------------
B|-------------------------------------------------------------------
G|-------------------------------------------------------------------
D|-------7-----7---------10-----10---------9-----9---------9-----9---
A|-5-5-5---5-5---5/8-8-8----8-8----8-7-7-7---7-7---7-7-7-7---7-7---7-
E|-------------------------------------------------------------------



E|---------------------------------------------------------------------------------
B|---------------------------------------------------------------------------------
G|---------------------------------------------------------------------------------
D|-------7---------5-7-------7---7-7-7-7-------7---------5-7-------7-9p7---7-7-7-7-
A|-9-7h9---9-7-5h7-----9-7h9---9-5-5-5-5-9-7h9---9-7-5h7-----9-7h9-------9-5-5-5-5-
E|-7---------5---------7-----------------7---------5---------7---------------------



E|---------------------7-------4-------5-5-----0-------2-
B|-9---9-----8---8-----7-7-----4-4-----5---5---0-0-----2-
G|-8-----8---9-----9---8---8---4---4---6-----6-1---1---3-
D|-9-9-----9-9-9-----9-9-----9-6-----6-7-------2-----2-4-
A|-7---------7---------9-------6-------7-------2-------4-
E|---------------------7-------4-------5-------0-------2-



E|-----------------------------------------------------------------------------------
B|-----------------------------------------------------------------------------------
G|-----------------------------------------------------------------------------------
D|------0------0------------0-------0------------0-------0------------0-------0------
A|----9------9------0----12------12------0----11------11------0----14------14------0-
E|-10-----10-----10---13------13------13---12------12------12---15------15------15---



E|-----------------------------------------------------------------------------------
B|-----------------------------------------------------------------------------------
G|-----------------------------------------------------------------------------------
D|------0------0------------0-------0------------0-------0------------0-------0------
A|----9------9------0----12------12------0----11------11------0----14------14------0-
E|-10-----10-----10---13------13------13---12------12------12---15------15------15---



E|--------------------------------------------------------
B|--------------------------------------------------------
G|--------------------------------------------------------
D|--------7--7------------------7--7----------9--9--9--9--
A|--7--7--5--5--8--8--10--7--7--5--5--10--10--7--7--7--7--
E|--5--5--------6--6--8---5--5--------8---8---------------



E|-----------------------------------------------------------------
B|-----------------------------------------------------------------
G|-----------------------------------------------------------------
D|-----7-----10-------------------7-----10-------------------7-----
A|-----5-----8------10-----10-----5-----8------10-----10-----5-----
E|------------------8------8-------------------8------8------------
http://www.guitartabcreator.com

Part I play each chord for

Part I play each chord for one measure, repeat 14x

Alex part, add chords with 12, 15, 14, 17, and 7, 10, 9, 12 on D string

Guitar Tab Creator is intended to store guitar tab created through the tool. It currently does not support in-line text editing. Any text you place in here will be lost. If you need to comment on your tab, please use the "Tab Notes" section located below.