original

(/) Slide Up  (\) Slide Down  (h) Hammer On  (p) Pull Off  (b) Bend (r) Release (v) Vibrato


E|--------------------------------------------
B|--------------------------------------------
G|--------------------------------------------
D|--------------------------------------------
A|--------------------------------------------
E|--0--0--0--0--4--3--0--1--0--3--0--4--0--3--



E|--------------------------------------------
B|--------------------------------------------
G|--------------------------------------------
D|--0--0--0--0--4--3--0--1--0--3--0--4--0--3--
A|--0--0--0--0--4--3--0--1--0--3--0--4--0--3--
E|--0--0--0--0--4--3--0--1--0--3--0--4--0--3--



E|--
B|--
G|--
D|--
A|--
E|--
http://www.guitartabcreator.com
Guitar Tab Creator is intended to store guitar tab created through the tool. It currently does not support in-line text editing. Any text you place in here will be lost. If you need to comment on your tab, please use the "Tab Notes" section located below.