Exo-politics

(/) Slide Up  (\) Slide Down  (h) Hammer On  (p) Pull Off  (b) Bend (r) Release (v) Vibrato


E|----------------------------------
B|----------------------------------
G|----------------------------------
D|--0--0--0-----0--2--3--3--2b2-----
A|-----------3-------------------3--
E|----------------------------------



E|------------------------------------------------------------------
B|------------------------------------------------------------------
G|------------------------------------------------------------------
D|--0--0--0-----0--2--3--3--2b2-----0--0--0-----0--2--3--3--2b2-----
A|-----------3-------------------3-----------3-------------------3--
E|------------------------------------------------------------------



E|-----------------------------------------------------------------------------
B|-----------------------------------------------------------------------------
G|-----------------------------------------------------------------------------
D|-----------------------------------------------------------------------------
A|--1--1--1--0--1--3-----------------------------------3--5--5--3--5--3--0-----
E|--------------------1--1--1--0--1--3--5--5--5--3--5--------------------------



E|--------------------------------------------------------------------------
B|--------------------------------------------------------------------------
G|--------------------------------------------------------------------------
D|--------------------------------------------------------------------------
A|--1--1--1--0--1--3-----------------------------------------------------3--
E|--------------------1--1--1--0--3--5--5--5--6--5--6--5--5--6--5--3--5-----



E|----------------------------------
B|----------------------------------
G|----------------------------------
D|--0--0--0-----0--2--3--3--2b2-----
A|-----------3-------------------3--
E|----------------------------------
http://www.guitartabcreator.com
Guitar Tab Creator is intended to store guitar tab created through the tool. It currently does not support in-line text editing. Any text you place in here will be lost. If you need to comment on your tab, please use the "Tab Notes" section located below.