With Us ~~~ Hillsong United

(/) Slide Up  (\) Slide Down  (h) Hammer On  (p) Pull Off  (b) Bend (r) Release (v) Vibrato

Stave 1:

E|----------14-14----------------15-15-14-------------14-14-------------------------------
B|-12-10-12-------12----12-10-12-------------12-10-12-------12----------------------------
G|----------------------------------------------------------------14-14-14-14-14-14-14-14-
D|----------------------------------------------------------------------------------------
A|----------------------------------------------------------------------------------------
E|----------------------------------------------------------------------------------------

Stave 2:

E|------------------------------------------------------------------------
B|---------10-10-10-8-------------8-8-8-7----------7-7-7------------------
G|-----7-7-----------------------------------------------9----------6-6-7-
D|-9-9---------------------------------------7-7-7------------------------
A|-----------------------10-10-10-----------------------------7-7-7-------
E|------------------------------------------------------------------------

Stave 3:

E|-7-----9--10--3----2----5----7----9--10--15----14----17-
B|--------------------------------------------------------
G|--------------------------------------------------------
D|--------------------------------------------------------
A|--------------------------------------------------------
E|--------------------------------------------------------

http://www.guitartabcreator.com
Guitar Tab Creator is intended to store guitar tab created through the tool. It currently does not support in-line text editing. Any text you place in here will be lost. If you need to comment on your tab, please use the "Tab Notes" section located below.