Song Sketch 1

(/) Slide Up  (\) Slide Down  (h) Hammer On  (p) Pull Off  (b) Bend (r) Release (v) Vibrato


E|-----------------------------------------------------------------------
B|--------------------------------0--------------------------------------
G|--------2--------2--------2--------2-----2--------2--------2--------2--
D|-----0--------0--------0-----0--------0--------0--------0--------0-----
A|--2--------0--------------------------------2--------0-----------------
E|--------------------3-----------------------------------------3--------



E|---------------------------------------------------------------------
B|---------------------------------------------------------------------
G|-------2-----------------2-------------------------------------------
D|-0-0-0---0-0-------0h2p0---0h2p0---------0-----------------------0---
A|-------------3-3-3---------------3-------------0-0-0-------0h2h3---3-
E|-----------------------------------3-3-3---3-3-------0h2h3-----------
http://www.guitartabcreator.com
Guitar Tab Creator is intended to store guitar tab created through the tool. It currently does not support in-line text editing. Any text you place in here will be lost. If you need to comment on your tab, please use the "Tab Notes" section located below.