Out Of My Mind

(/) Slide Up  (\) Slide Down  (h) Hammer On  (p) Pull Off  (b) Bend (r) Release (v) Vibrato


E|---------------------------------------------------------------------------------------
B|-------------10------------13b15--10--13--10h13p10------10----------------------10-----
G|-------------10h11----------------------------------12--------12p10------12b13---------
D|------9--12----------------------------------------------------------12----------------
A|--12----------------12v----------------------------------------------------------------
E|---------------------------------------------------------------------------------------



E|-----------------------------------------------------------------------
B|-------------------------------------------------------------10--------
G|--10---------------------------------------------------------10--11----
D|------12p10-------------------------------------------10h12----------9\
A|-------------12p10--10h11p10------10------10---------------------------
E|------------------------------13------13------13--10-------------------
http://www.guitartabcreator.com
Guitar Tab Creator is intended to store guitar tab created through the tool. It currently does not support in-line text editing. Any text you place in here will be lost. If you need to comment on your tab, please use the "Tab Notes" section located below.