Valeu Amigo - Solo 2

(/) Slide Up  (\) Slide Down  (h) Hammer On  (p) Pull Off  (b) Bend (r) Release (v) Vibrato


E|----------------------------------------------------------------------------------------------
B|-------7----------7----------7----------7----------7---------------------------------9--7-----
G|--6h8-----8--6h8-----8--6h8-----8--6h8-----8--6h8-----8-------4--6b8r6--4h6--4-------------8--
D|---------------------------------------------------------4h6--------------------7/9-----------
A|----------------------------------------------------------------------------------------------
E|----------------------------------------------------------------------------------------------



E|-----------------------
B|--------------------7--
G|--8r6--4--6p4--6/8-----
D|-----------------------
A|-----------------------
E|-----------------------
http://www.guitartabcreator.com
Guitar Tab Creator is intended to store guitar tab created through the tool. It currently does not support in-line text editing. Any text you place in here will be lost. If you need to comment on your tab, please use the "Tab Notes" section located below.