Valeu Amigo - Introdução | Violão Base

(/) Slide Up  (\) Slide Down  (h) Hammer On  (p) Pull Off  (b) Bend (r) Release (v) Vibrato


E|--------------7--------------------------6-------------------------------------
B|--------7--------------------------7-----------7--------------4----------------
G|-----8-----8-----8--------------6-----6-----6-----6--------4-----4-------------
D|--------------------------------------------------------------------5/6--4-----
A|--------------------------6--9-----------------------9----------------------6--
E|--7-----------------7--9--------------------------------4----------------------



E|--------------------4--------------------
B|--------------5--------------------------
G|-----------4-----4-----------------------
D|-----------------------------------------
A|--4--6--7--------------9/11--9-----------
E|--------------------------------11\9--7--
http://www.guitartabcreator.com
Guitar Tab Creator is intended to store guitar tab created through the tool. It currently does not support in-line text editing. Any text you place in here will be lost. If you need to comment on your tab, please use the "Tab Notes" section located below.