swing

(/) Slide Up  (\) Slide Down  (h) Hammer On  (p) Pull Off  (b) Bend (r) Release (v) Vibrato
E|-----------------------------------------------------
B|-----------------------------------------------------
G|-----------------------------------------------------
D|-------------2-------------------------2-------------
A|-0-2-3-2-0-0---0-2-3-2-0-2-0-2-3-2-0-0---0-2-3-2-0-2-
E|-----------------------------------------------------



E|---------------------------------------------------------
B|---------------------------------------------------------
G|---------------------------------------------------------
D|---------------------4---------------------2-------------
A|-------2---4-2---2/3---5-4-4-------2---4-2---0-2-3-2-0-0-
E|-0-2-3---3-----3-------------0-2-3---3-------------------



E|-----------------------------------------------
B|-----------------------------------------------
G|-------------------------------2---------------
D|-------2---------------2---4-2-----2-5-4-0-2---
A|-0-2-3---3-3-2---0-2-3---3-------3-------------
E|---------------2-----------------------------2-
http://www.guitartabcreator.com
Guitar Tab Creator is intended to store guitar tab created through the tool. It currently does not support in-line text editing. Any text you place in here will be lost. If you need to comment on your tab, please use the "Tab Notes" section located below.