Matt's Riff + Chord Progression

(/) Slide Up  (\) Slide Down  (h) Hammer On  (p) Pull Off  (b) Bend (r) Release (v) Vibrato
E|----------------------------
B|----------------------------
G|-----------------4-----5/7--
D|----------------------------
A|-----2-----5--3-----0-------
E|--0-----3-------------------



E|--0--0--0--0--0--0--
B|--0--0--1--0--0--0--
G|--0--7--2--2--5--4--
D|--2--7--2--2--5--5--
A|--2--5--0--0--3--3--
E|--0--0--0--0--0--0--
http://www.guitartabcreator.com
Guitar Tab Creator is intended to store guitar tab created through the tool. It currently does not support in-line text editing. Any text you place in here will be lost. If you need to comment on your tab, please use the "Tab Notes" section located below.