I'm A Soldier (Partial Tab)

(/) Slide Up  (\) Slide Down  (h) Hammer On  (p) Pull Off  (b) Bend (r) Release (v) Vibrato


E|-------------------------------------------------------------------------------------------
B|-------------------------------------------------------------------------------------------
G|-------12----11-12----------12----11-12--------9---7-9---------7---5-7-5-4-----5---4-5-4-2-
D|----12----12-------12----12----12-------12---9---9-----9-----7---7-----------5---5---------
A|-10-------------------10-------------------7-------------7-5---------------3---------------
E|-------------------------------------------------------------------------------------------



E|---------------------------------------------
B|-------15----13----12----------13----12------
G|----14----14----14----14----12----12----12---
D|-12----------------------10------------------
A|---------------------------------------------
E|---------------------------------------------



E|---|-|-|-|-|-|-|-|-|-|---|-|-|-|-|-|-|-|-|-|---|-|-|-|-|-|-|-|-|-|---|-|-|-|-|-|-|-|-|-|-
B|---|-|-|-|-|-|-|-|-|-|---|-|-|-|-|-|-|-|-|-|---|-|-|-|-|-|-|-|-|-|---|-|-|-|-|-|-|-|-|-|-
G|---|-|-|-|-|-|-|-|-|-|---|-|-|-|-|-|-|-|-|-|---|-|-|-|-|-|-|-|-|-|---|-|-|-|-|-|-|-|-|-|-
D|-5-|-|-|-|-|-|-|-|-|-|-4-|-|-|-|-|-|-|-|-|-|-5-|-|-|-|-|-|-|-|-|-|-4-|-|-|-|-|-|-|-|-|-|-
A|-5-|-|-|-|-|-|-|-|-|-|-5-|-|-|-|-|-|-|-|-|-|-5-|-|-|-|-|-|-|-|-|-|-5-|-|-|-|-|-|-|-|-|-|-
E|-3-|-|-|-|-|-|-|-|-|-|-3-|-|-|-|-|-|-|-|-|-|-3-|-|-|-|-|-|-|-|-|-|-3-|-|-|-|-|-|-|-|-|-|-



E|---|-|-|---|-|-|-|-|-|---|-|-|---|-|-|-|-|-|---|-|-|-|-|-|-|-|-|-|---|-|-|-|-|-|-|-|-|-|-
B|---|-|-|---|-|-|-|-|-|---|-|-|---|-|-|-|-|-|---|-|-|-|-|-|-|-|-|-|---|-|-|-|-|-|-|-|-|-|-
G|---|-|-|---|-|-|-|-|-|---|-|-|---|-|-|-|-|-|-7-|-|-|-|-|-|-|-|-|-|-4-|-|-|-|-|-|-|-|-|-|-
D|-4-|-|-|-5-|-|-|-|-|-|-4-|-|-|-5-|-|-|-|-|-|-7-|-|-|-|-|-|-|-|-|-|-5-|-|-|-|-|-|-|-|-|-|-
A|-2-|-|-|-2-|-|-|-|-|-|-2-|-|-|-2-|-|-|-|-|-|-5-|-|-|-|-|-|-|-|-|-|-3-|-|-|-|-|-|-|-|-|-|-
E|-0-|-|-|-0-|-|-|-|-|-|-0-|-|-|-0-|-|-|-|-|-|-x-|-|-|-|-|-|-|-|-|-|-x-|-|-|-|-|-|-|-|-|-|-



E|-
B|-
G|-
D|-
A|-
E|-
http://www.guitartabcreator.com
Guitar Tab Creator is intended to store guitar tab created through the tool. It currently does not support in-line text editing. Any text you place in here will be lost. If you need to comment on your tab, please use the "Tab Notes" section located below.