Napoleon Coste estudio No 13

(/) Slide Up  (\) Slide Down  (h) Hammer On  (p) Pull Off  (b) Bend (r) Release (v) Vibrato

E|---------------------------------------------------------------------1-------1-------------------
B|-----3-------3-------3-------3-------3-------3-------3-------3-----------3-----------4-------4---
G|---------3---------------2---------------5---------------3---------0---0---0---0---------5-------
D|---0---0---0---0---0---0---0---0---4---4---4---4---5---5---5---5-------------------5---5---5---5-
A|---------------------------------0-------------------------------2---------------3---------------
E|-3---------------2-------------------------------3-----------------------------------------------



E|-----3-------3-------3-------3-------3-------2-------1-------1-----------------------------------
B|---------5---------------3---------------1---------------3-----------4-------4-------3-------3---
G|---3---3---3---3---3---3---3---3---2---2---2---2---1---1---1---1---------5---------------3-------
D|-----------------0---------------0---------------------------------5---5---5---5---5---5---5---5-
A|-4-----------------------------------------------2---------------3---------------5---------------
E|-------------------------------------------------------------------------------------------------



E|-----3-------3-------3-------3-------1-------1-------1-------1-------1-------1-------2-------2---
B|---------2---------------2---------------3---------------4---------------3---------------3-------
G|---3---3---3---3---3---3---3---3---3---3---3---3---2---2---2---2---3---3---3---3---5---5---5---5-
D|-1---------------2---------------3---------------------------------------------------------------
A|-----------------------------------------------------------------1---------------0---------------
E|-------------------------------------------------1-----------------------------------------------



E|-----3-------3-------5-------5-------6-------6-------6-------5-------5-------3-------3-------2---
B|---------3---------------3---------------3---------------4---------------3---------------1-------
G|---3---3---3---3---5---5---5---5---3---3---3---3---5---5---5---5---3---3---3---3---2---2---2---2-
D|-----------------0-----------------------------------------------0---------------0---------------
A|-------------------------------------------------3-----------------------------------------------
E|-3-------------------------------3---------------------------------------------------------------



E|--------------------3-----------------------------------------------3--------------------------
B|--------------3-----------3--------------------3--------------3-----------3--------------------
G|-----------3-----3-----3-----3-----3--------3--------------3-----3-----3-----3-----3--------3--
D|--------5-----------------------5--------5--------------5-----------------------5--------5-----
A|-----5--------------------------------5--------------5--------------------------------5--------
E|--3-----------------------------------------------3--------------------------------------------



E|---
B|---
G|---
D|-0-
A|-1-
E|-3-
http://www.guitartabcreator.com
Guitar Tab Creator is intended to store guitar tab created through the tool. It currently does not support in-line text editing. Any text you place in here will be lost. If you need to comment on your tab, please use the "Tab Notes" section located below.