guhijfyguhi

(/) Slide Up  (\) Slide Down  (h) Hammer On  (p) Pull Off  (b) Bend (r) Release (v) Vibrato


E|------------------------------------------------------
B|------------------------------------------------------
G|------------------------------------------------------
D|--------7--------7-----7---------7---------7--11--12--
A|-----9--------9-----9---------9---------9-------------
E|--7--------7--------------10--------10----------------



E|----------------------------
B|----------------------------
G|---------11--9--7---7---7---
D|--7--11--7---7--11--7---7---
A|--9--9---9---9--9---7---9---
E|--7--10--7---7--10--10--10--



E|------------------------
B|--------------7---------
G|-----------------7------
D|------------------------
A|--14--12--10--------10--
E|--14--12--10------------



E|------------------------------------------------------
B|--13--12--12--12--12--12--12--13--13--12--10--12--10--
G|--7---7---7---7---7---7---7---7---7---7---7-----------
D|--9---9---9---9---9---9---9---9---9---9---9-----------
A|--7---7---7---7---7---7---7---7---7---7---7-----------
E|--7---7---7---7---7---7---7---7---7---7---7-----------
http://www.guitartabcreator.com
Guitar Tab Creator is intended to store guitar tab created through the tool. It currently does not support in-line text editing. Any text you place in here will be lost. If you need to comment on your tab, please use the "Tab Notes" section located below.