D#A#FA#CF capo 7

(/) Slide Up  (\) Slide Down  (h) Hammer On  (p) Pull Off  (b) Bend (r) Release (v) Vibrato


E|-----------------
B|-----------------
G|-----------------
D|--7--7---9---7---
A|--7--11--7---7---
E|--7--9---11--11--



E|----------------------------------------7--------------
B|----------------------------------------------------7--
G|-------------------------------------7-----7-----7-----
D|----------------------------------7-----------7--------
A|----------7----------7---------------------------------
E|--7h9h11-----7h9h11-----11--9--7-----------------------



E|-----------------------
B|-----------------------
G|-----------------------
D|--11/12----------------
A|---------7h11p7--7h11--
E|-----------------------
http://www.guitartabcreator.com
Guitar Tab Creator is intended to store guitar tab created through the tool. It currently does not support in-line text editing. Any text you place in here will be lost. If you need to comment on your tab, please use the "Tab Notes" section located below.