cain's paradise

(/) Slide Up  (\) Slide Down  (h) Hammer On  (p) Pull Off  (b) Bend (r) Release (v) Vibrato


E|--------------------------------------------------------------------
B|--0-----------0-----------4--------0-----------0-----------4--------
G|-----0-----------0-----------0--------0-----------0-----------0-----
D|--------0-----------0-----------0--------0-----------0-----------0--
A|-----------0-----------0--------------------0-----------0-----------
E|--------------------------------------------------------------------



E|--------------0--------------0--5--3--------------0--------------0--8--6--5--6--
B|-----------0--------------0--------------------0--------------0-----------------
G|--------0--------------0--------------------0--------------0--------------------
D|-----0--------------0--------------------0--------------0-----------------------
A|--0--------------0--------------------0--------------0--------------------------
E|--------------------------------------------------------------------------------



E|--0--0--0--0--
B|--0--0--0--0--
G|--0--0--0--0--
D|--0--0--0--0--
A|--0--0--0--0--
E|-----0--2--4--



E|--------------
B|--------------
G|--------------
D|--4--4--4--2--
A|--4--2--0--0--
E|--4--2--0--0--



E|------------------------------------------------------------------------------------------
B|------------------------------------------------------------------------------------------
G|-------------12--13--5-------------12--13--5-------------12--13--5-------------12--13--5--
D|--12--14--5-------------12--14--5-------------12--14--2-------------12--14--2-------------
A|------------------------------------------------------------------------------------------
E|------------------------------------------------------------------------------------------



E|--
B|--
G|--
D|--
A|--
E|--
http://www.guitartabcreator.com
Guitar Tab Creator is intended to store guitar tab created through the tool. It currently does not support in-line text editing. Any text you place in here will be lost. If you need to comment on your tab, please use the "Tab Notes" section located below.