Lunch Time

(/) Slide Up  (\) Slide Down  (h) Hammer On  (p) Pull Off  (b) Bend (r) Release (v) Vibrato


E|-----------------
B|-----------------
G|------12------9--
D|--12--12--12--9--
A|--12--10--12--7--
E|--10------10-----



E|-----------------------------------------------------
B|-----------------------------------------------------
G|-----------------------------------------2--2--4--2--
D|--4--------------2--2--4--2--0--0--3--4--------------
A|--4--0--0--3--4--------------------------------------
E|-----------------------------------------------------



E|-----------------
B|-----------------
G|--------5--5--5--
D|--2--5--5--7--5--
A|--2--5--3--7--3--
E|--0--3--5--5-----
http://www.guitartabcreator.com
Guitar Tab Creator is intended to store guitar tab created through the tool. It currently does not support in-line text editing. Any text you place in here will be lost. If you need to comment on your tab, please use the "Tab Notes" section located below.