Lego House

(/) Slide Up  (\) Slide Down  (h) Hammer On  (p) Pull Off  (b) Bend (r) Release (v) Vibrato


E|--------------------------------------------------------------------------------------
B|--------------------------------------------------------------------------------------
G|----4----4----4----4---------4---------4---------4------------------------------------
D|------------------------4---------4---------4---------4/6----4----4----1----2----1----
A|--------------------------------------------------------------------------------------
E|--------------------------------------------------------------------------------------



E|------------------------------------------------------------------------------------------
B|---------------------------------------------------------------7--------------------------
G|----4----4----4----4---------4/6----6----6----6/8----8----4---------8----6----4----3/4----
D|------------------------4-----------------------------------------------------------------
A|------------------------------------------------------------------------------------------
E|------------------------------------------------------------------------------------------



E|----------------------------------------------------------------------------------------
B|----------------------------------------------------------------------------------------
G|----4h6----4h6----4h6----6/8----4h6----4h6----7----8--------4h6----4h6----4h6----6/8----
D|----------------------------------------------------------------------------------------
A|----------------------------------------------------------------------------------------
E|----------------------------------------------------------------------------------------



E|-------------------------------------------------------------------------------
B|-------------------------------------------------------------------------------
G|----4h6----4h6----7----8----6----4----6/8----8\4----4------------4----4h6/8----
D|-------------------------------------------------------------------------------
A|-------------------------------------------------------------------------------
E|-------------------------------------------------------------------------------



E|----------------------------------------------------------------------------------------------
B|----------------------7-----------------------------------------5-----------------------------
G|----4h6/8----4h6/8---------8----6----4----4h6----4----4----4---------8----6----6----4----4----
D|----------------------------------------------------------------------------------------------
A|----------------------------------------------------------------------------------------------
E|----------------------------------------------------------------------------------------------



E|-----------------------------------------------------------------------------------------------
B|---------------------------------------------------------------------------7-------------------
G|----4h6----6/8----6\4------------4----4h6/8----4----4h6/8----4----4h6/8---------8----6----4----
D|-----------------------------------------------------------------------------------------------
A|-----------------------------------------------------------------------------------------------
E|-----------------------------------------------------------------------------------------------



E|--------------------------------------------------------------------------------------------
B|--------------------------5-----------------------------------------------------------------
G|----4h6----4----4----4---------8----6----6----4----4----4h6----6/8----6\4------------3/4----
D|--------------------------------------------------------------------------------------------
A|--------------------------------------------------------------------------------------------
E|--------------------------------------------------------------------------------------------



E|------------------------------------------------------------------------------------------
B|------------------------------------------------------------------------------------------
G|----4----4----4----4---------3----3----3/4----4/6----4----4\1-----------------------------
D|------------------------4----------------------------------------4----4----4----4----1----
A|------------------------------------------------------------------------------------------
E|------------------------------------------------------------------------------------------



E|------------------------------------------------------------------------------------------------
B|------------------------------------------------------------------------------------------------
G|----------------------4----4----4----4----4/8----8/9----8/9----8-----------------4----4----4----
D|----4----2----------------------------------------------------------9---------------------------
A|------------------------------------------------------------------------------------------------
E|------------------------------------------------------------------------------------------------



E|-----------------------------------------------------------------------------------------
B|----7----7----7--------------------------------------------------------------------------
G|-------------------4----4----8----6\4----8----6\4------------4----4h6/8----4----4h6/8----
D|-----------------------------------------------------------------------------------------
A|-----------------------------------------------------------------------------------------
E|-----------------------------------------------------------------------------------------



E|------------------------------------------------------------------------------------------
B|------------------7-----------------------------------------5-----------------------------
G|----4----4h6/8---------8----6----4----4h6----4----4----4---------8----6----6----4----4----
D|------------------------------------------------------------------------------------------
A|------------------------------------------------------------------------------------------
E|------------------------------------------------------------------------------------------



E|-------------------------------------------------------------------------------------------
B|-----------------------------------------------------------------------7-------------------
G|----4h6----6/8----6\4--------4----4h6/8----4----4h6/8----4----4h6/8---------8----6----4----
D|-------------------------------------------------------------------------------------------
A|-------------------------------------------------------------------------------------------
E|-------------------------------------------------------------------------------------------



E|---------------------------------------------------------------------------------------------
B|--------------------------5------------------------------------------------------7-----------
G|----4h6----4----4----4---------8----6----6----4----4----4h6----6/8----6\4-------------4h6----
D|---------------------------------------------------------------------------------------------
A|---------------------------------------------------------------------------------------------
E|---------------------------------------------------------------------------------------------



E|-----------------------------------------------------------------------------------------------
B|-------------------------------------4h7----4h7p4----4h7----4----4-----------------------------
G|----4h6----4h6---------4----------------------------------------------6v--------4----4----4----
D|------------------0---------0------------------------------------------------------------------
A|-----------------------------------------------------------------------------------------------
E|-----------------------------------------------------------------------------------------------



E|-------------------------------------------------------------------------------------------------
B|--------------------------7-------------------------------------------7--------------------------
G|----4h6----4----4----4---------8----4----4h6/8----4----4----4----6---------8----6----4----6/8----
D|-------------------------------------------------------------------------------------------------
A|-------------------------------------------------------------------------------------------------
E|-------------------------------------------------------------------------------------------------



E|--------------------------------------------------------------------------------------------
B|------------------------------------------------------------7-------------------------------
G|----6----4--------4----4h6/8----4----4h6/8----4----4h6/8---------8----6----4----4h6---------
D|--------------------------------------------------------------------------------------------
A|--------------------------------------------------------------------------------------------
E|--------------------------------------------------------------------------------------------



E|--------------------------------------------------------------------------------------------
B|-------------------5------------------------------------------------------------------------
G|----4----4----4---------8----6----6----4----4h6/8----6\4--------4----4h6/8----4----4h6/8----
D|--------------------------------------------------------------------------------------------
A|--------------------------------------------------------------------------------------------
E|--------------------------------------------------------------------------------------------



E|-------------------------------------------------------------------------------------
B|------------------7-----------------------------------------5------------------------
G|----4----4h6/8---------8----6----4----4h6----4----4----4---------8----6----6----4----
D|-------------------------------------------------------------------------------------
A|-------------------------------------------------------------------------------------
E|-------------------------------------------------------------------------------------



E|-------------------------
B|-------------------------
G|----4----4h6/8----6\4----
D|-------------------------
A|-------------------------
E|-------------------------
http://www.guitartabcreator.com
Guitar Tab Creator is intended to store guitar tab created through the tool. It currently does not support in-line text editing. Any text you place in here will be lost. If you need to comment on your tab, please use the "Tab Notes" section located below.