Milhouse

(/) Slide Up  (\) Slide Down  (h) Hammer On  (p) Pull Off  (b) Bend (r) Release (v) Vibrato

E|--------------------------------------------------------------------------
B|--------------------------------------------------------------------------
G|--------------------------------------------------------------------------
D|--------------------------------------------------------------------------
A|--------------------------------------------------------------------------
E|--3--5--3--0--1--1--1--1--1--1--1--1--5--7--5--0--3--3--3--3--3--3--3--3--



E|------------------------------------------------------------------------------------------------------------------------------------------------------------------
B|----------------------------------9---9---9---9---9---9---9---9-----------------------------------7---7---7---7---7---9---9---9-----------------------------------
G|----------------------------------12--12--12--12--12--12--12--12----------------------------------10--10--10--10--10--12--12--12----------------------------------
D|------------------------------------------------------------------------------------------------------------------------------------------------------------------
A|------------------------------------------------------------------------------------------------------------------------------------------------------------------
E|--0--0--0--0--0----0--0--0--0--0----------------------------------0--0--0--0--0----0--0--0--0--0----------------------------------0--0--0--0--0----0--0--0--0--0--
http://www.guitartabcreator.com
Guitar Tab Creator is intended to store guitar tab created through the tool. It currently does not support in-line text editing. Any text you place in here will be lost. If you need to comment on your tab, please use the "Tab Notes" section located below.