Balad/solo 001 (A)

(/) Slide Up  (\) Slide Down  (h) Hammer On  (p) Pull Off  (b) Bend (r) Release (v) Vibrato

E|-------------------------------------------------------------------------------|-
B|-------------------------------------------------------------------------------|-
G|----------17-------19-------21-19-17----------------19-------17----------------|-
D|-------15-------17-------19----------20-19-17----17-------15-------------------|-
A|-12/13-------15-------17----------------------15-------13-------12-13-12-10-12-|-
E|-------------------------------------------------------------------------------|-



E|----------------------------------------------------------------------------------------------------
B|----------------------------------------------------------------------------------------------------
G|----------17-------19-------21-21b21-19-17----------19-------17-------------------------------------
D|-------15-------17-------19----------------20----17-------15----------------------------------------
A|-12/13-------15-------17----------------------15-------13-------12-13-12-10-------------------------
E|----------------------------------------------------------------------------13-12-10\6-5-6-5-3-5v---
http://www.guitartabcreator.com
Guitar Tab Creator is intended to store guitar tab created through the tool. It currently does not support in-line text editing. Any text you place in here will be lost. If you need to comment on your tab, please use the "Tab Notes" section located below.