Carbine - EP Track 1

(/) Slide Up  (\) Slide Down  (h) Hammer On  (p) Pull Off  (b) Bend (r) Release (v) Vibrato


E|------------------------
B|----------10--10--------
G|--11--13----------9--9--
D|------------------------
A|------------------------
E|------------------------



E|--------------
B|--------------
G|--------------
D|--------------
A|--9--9--9--7--
E|--------------



E|--------------
B|--7--7--5-----
G|--8--8--6--1--
D|--9--9--7--2--
A|--9--9--7--2--
E|--x--x--x--x--
http://www.guitartabcreator.com
Guitar Tab Creator is intended to store guitar tab created through the tool. It currently does not support in-line text editing. Any text you place in here will be lost. If you need to comment on your tab, please use the "Tab Notes" section located below.