Whiskey In The Jar

(/) Slide Up  (\) Slide Down  (h) Hammer On  (p) Pull Off  (b) Bend (r) Release (v) Vibrato


E|---------------------------------------------9-----------------9--10--10--9------------10-----
B|----------------------8--8/10--8-----10--10-----10-----10--10----------------10--8--8---------
G|------------7--9--10--------------9-----------------9-----------------------------------------
D|--10p9--11------------------------------------------------------------------------------------
A|----------------------------------------------------------------------------------------------
E|----------------------------------------------------------------------------------------------



E|--9-----------------9--10--10--9------------10--9-----------------9--10--10--9------
B|-----10-----10--10----------------10--8--8---------10-----10--10----------------10--
G|---------9---------------------------------------------9----------------------------
D|------------------------------------------------------------------------------------
A|------------------------------------------------------------------------------------
E|------------------------------------------------------------------------------------



E|--------10--9------------------------------------------------------------------9--10--
B|--8--8---------10--------------------------------------------8--10--10--8--10---------
G|-------------------9--9--10--9--7--7--9--10--9--9--7--9--10---------------------------
D|--------------------------------------------------------------------------------------
A|--------------------------------------------------------------------------------------
E|--------------------------------------------------------------------------------------



E|---------------------
B|---------------------
G|--9--9--9--7--7------
D|-----------------10--
A|---------------------
E|---------------------
http://www.guitartabcreator.com
Guitar Tab Creator is intended to store guitar tab created through the tool. It currently does not support in-line text editing. Any text you place in here will be lost. If you need to comment on your tab, please use the "Tab Notes" section located below.