West LA Fadeaway

(/) Slide Up  (\) Slide Down  (h) Hammer On  (p) Pull Off  (b) Bend (r) Release (v) Vibrato


E|---------------------------------------------------
B|---------------------------------------------------
G|----------------5-----5----------------------------
D|--5/7--7--5--7-----7-----5/7--5--------------------
A|---------------------------------5--3-----1--1-----
E|---------------------------------------2--------2--



E|-------------------------------------------
B|-------------------------------------------
G|----------------7-----7--------------------
D|--7/9--9--7--9-----9-----9-----5--5--5--7--
A|----------------------------5--------------
E|-------------------------------------------



E|---------------------------------------------------
B|---------------------------------------------------
G|----------------5-----5----------------------------
D|--5/7--7--5--7-----7-----5/7--5--------------------
A|---------------------------------5--3-----1--1-----
E|---------------------------------------2--------2--
http://www.guitartabcreator.com
Guitar Tab Creator is intended to store guitar tab created through the tool. It currently does not support in-line text editing. Any text you place in here will be lost. If you need to comment on your tab, please use the "Tab Notes" section located below.