Uncle John's Band

(/) Slide Up  (\) Slide Down  (h) Hammer On  (p) Pull Off  (b) Bend (r) Release (v) Vibrato


E|--9--12------9--------------------------9--9--12------9---------------
B|---------10-----8--8--10--8--7--------------------10-----8--8--10--7--
G|--------------------------------9--7----------------------------------
D|----------------------------------------------------------------------
A|----------------------------------------------------------------------
E|----------------------------------------------------------------------



E|----------------------------2--------2--------2--------2-----
B|-------------------------------3--3-----3--3-----3--3-----3--
G|--2--0-------------------------------------------------------
D|--------3--0--2-----2--0-------------------------------------
A|-----------------1-------------------------------------------
E|-------------------------------------------------------------
http://www.guitartabcreator.com
Guitar Tab Creator is intended to store guitar tab created through the tool. It currently does not support in-line text editing. Any text you place in here will be lost. If you need to comment on your tab, please use the "Tab Notes" section located below.