Two Of Us

(/) Slide Up  (\) Slide Down  (h) Hammer On  (p) Pull Off  (b) Bend (r) Release (v) Vibrato


E|---9---9-9-------9---9-9-------------------------------------
B|-------------------------------------------------------------
G|-7---7-----7-9-7---7-----7-9---------------------------------
D|-------------------------------5-----------5---5-----------5-
A|-------------------------------------3-3/5-----------3-3/5---
E|-----------------------------0---2/4---------0---2/4---------



E|-------------------------------------------------------
B|-------------------------------------------------------
G|-------------------------------------------------------
D|---5-----------5---5-----------5---5-------------------
A|---------3-3/5-----------3-3/5-------1-1-0-0-----------
E|-0---2/4---------0---2/4---------0-----------2-0-2-0-0-



E|-------------------------------
B|-------------------------------
G|-------------------------------
D|-------------------------------
A|-1-1-0-0-----------------0-1-3-
E|---------2-0-2-0-0-0-0-0-------
http://www.guitartabcreator.com
Guitar Tab Creator is intended to store guitar tab created through the tool. It currently does not support in-line text editing. Any text you place in here will be lost. If you need to comment on your tab, please use the "Tab Notes" section located below.