Till The Morning Comes

(/) Slide Up  (\) Slide Down  (h) Hammer On  (p) Pull Off  (b) Bend (r) Release (v) Vibrato


E|--17/18--17--17--15/16--19--19-----------------16--19--19--17/18--21--21--15/16--19--19--
B|--------------------------------13/14--17--17--------------------------------------------
G|-----------------------------------------------------------------------------------------
D|-----------------------------------------------------------------------------------------
A|-----------------------------------------------------------------------------------------
E|-----------------------------------------------------------------------------------------



E|--10--19--21------19--21--19--17/18--21--21--15/16--19--19---------14--16------14--16--14--
B|--------------19--------------------------------------------13/14----------14--------------
G|-------------------------------------------------------------------------------------------
D|-------------------------------------------------------------------------------------------
A|-------------------------------------------------------------------------------------------
E|-------------------------------------------------------------------------------------------



E|--17/18--21--18--15/16--19--19------
B|------------------------------------
G|--------------------------------14--
D|------------------------------------
A|------------------------------------
E|------------------------------------
http://www.guitartabcreator.com
Guitar Tab Creator is intended to store guitar tab created through the tool. It currently does not support in-line text editing. Any text you place in here will be lost. If you need to comment on your tab, please use the "Tab Notes" section located below.