Terrapin Station (Part 3)

(/) Slide Up  (\) Slide Down  (h) Hammer On  (p) Pull Off  (b) Bend (r) Release (v) Vibrato


E|--7/16--17\7--7/16h17--16--14--16--17\7--8--8--7--5--4-----------------------------7--
B|--------------------------------------------------------4--3--1--------------------7--
G|-----------------------------------------------------------------3--2--3--2--0--2--7--
D|-----------------------------------------------------------------------------------7--
A|-----------------------------------------------------------------------------------7--
E|-----------------------------------------------------------------------------------7--



E|-------------------------------------------------------------------
B|-------------------------------------------------------------------
G|------------------7---------------7--------------------------10p9--
D|-----------10--7--------------10-----7-------------------12--------
A|--8--5--8------------8--5--8--------------10--10--8--10------------
E|-------------------------------------------------------------------



E|---------------------------------------------------------------
B|---------------------------------------------------------------
G|----------------------12p11--------------------7---------------
D|------------------14--------------------9---------10--7--------
A|--12--12--10--12---------------------8-----10------------6--8--
E|-------------------------------7--9----------------------------
http://www.guitartabcreator.com
Guitar Tab Creator is intended to store guitar tab created through the tool. It currently does not support in-line text editing. Any text you place in here will be lost. If you need to comment on your tab, please use the "Tab Notes" section located below.