Terrapin Station (Part 2)

(/) Slide Up  (\) Slide Down  (h) Hammer On  (p) Pull Off  (b) Bend (r) Release (v) Vibrato


E|-----------------------------2------2--2--2--0--0--0--5--5--5--0--0--0--7--7--7--
B|-----------------------------1------1--1--1--0--0--0--5--5--5--0--0--0--7--7--7--
G|-----------------------------2------2--2--2--0--0--0--5--5--5--0--0--0--7--7--7--
D|--2--0-----0-----------------2------2--2--2--0--0--0--5--5--5--0--0--0--7--7--7--
A|--------1-----1--0--1--0-----1------1--1--1--0--0--0--5--5--5--0--0--0--7--7--7--
E|--------------------------0--2------2--2--2--0--0--0--5--5--5--0--0--0--7--7--7--



E|--2--4--5p4p2-----2h4-----------------------------2-----------------------------------------------
B|---------------3----------------------------------1--------1--0-----------------------------1-----
G|--------------------------------------------------2-----2--------0-----------2--0--------------2--
D|-----------------------2--0-----0-----------------2--2--------------0--0--2--------2--0--2--------
A|-----------------------------1-----1--0--1--0-----1-----------------------------------------------
E|-----------------------------------------------0--2-----------------------------------------------



E|--2-----4--------------4--4--2--4--5p4p2-----2h4--2--------------------------2--
B|-----4--3--------0--3-----3---------------3----------3--1--3--1--0--1--0-----1--
G|--------2--0--2-----------2-----------------------------------------------0--2--
D|--------0-----------------0--------------------------------------------------2--
A|-----------------------------------------------------------------------------1--
E|-----------------------------------------------------------------------------2--
http://www.guitartabcreator.com
Guitar Tab Creator is intended to store guitar tab created through the tool. It currently does not support in-line text editing. Any text you place in here will be lost. If you need to comment on your tab, please use the "Tab Notes" section located below.