Terrapin Station (Part 1)

(/) Slide Up  (\) Slide Down  (h) Hammer On  (p) Pull Off  (b) Bend (r) Release (v) Vibrato


E|---------------------------------------------------------------
B|---------------------------------------------------------------
G|------------------------------------------------------------1--
D|--0--2--4--2----2--0h2--4--0----2--0h2--0-------2--0--2--4-----
A|-------------------------------------------0-------------------
E|---------------------------------------------------------------



E|-------------------------------------------------------------------------------------------
B|-------------------------------------------------------------------------------------------
G|----------------------------------------------1-----------------------------------------2--
D|--0--2--4--2------2--0h2--4--0----2--0--2--4--------------------2--4--2-----------2--4-----
A|----------------------------------------------------0--2--0--2-----------2--0--2-----------
E|-------------------------------------------------2-----------------------------------------



E|----------------------------------------------------------------------------------------
B|----------------------------------------------------------------------------------------
G|-----------4----------------------------------------------------------------------------
D|--2--0--2-----2--2--2--2--2--0--2--4--2--0--2--2--2--0--2--0-----2--2--2--0--2--4p2--0--
A|--------------------------------------------------------------0-------------------------
E|----------------------------------------------------------------------------------------



E|--2--4--5p4p2-----2h4--
B|---------------3-------
G|-----------------------
D|-----------------------
A|-----------------------
E|-----------------------
http://www.guitartabcreator.com
Guitar Tab Creator is intended to store guitar tab created through the tool. It currently does not support in-line text editing. Any text you place in here will be lost. If you need to comment on your tab, please use the "Tab Notes" section located below.