Stella Blue

(/) Slide Up  (\) Slide Down  (h) Hammer On  (p) Pull Off  (b) Bend (r) Release (v) Vibrato


E|---------------2--2--2--2-------------2-----------2--
B|---------------0--0--0--0-------------0-----------0--
G|--7------------1--1--1--1-------------1-----------1--
D|-----11--8--7--2--2--2--2-------------0--------1--2--
A|---------------0--0--0--0----------------0--2-----0--
E|--4--6---3--2--1--1--1--1--4p3--2--4--1-----------1--



E|---------------------
B|---------------------
G|---------------------
D|-----9--4--4/6\4--2--
A|--7------------------
E|---------------------



E|------------------------9----9--4--2-----9--
B|------------------------9----9--------4--9--
G|------------------------9----9-----------9--
D|---------------------1--9----9-----------9--
A|--0h2p0--------0--2-----9----9-----------9--
E|---------1--2-----------9----9-----------9--



E|------------------------------
B|------------------------------
G|------------------------------
D|-------------1--1h2--1--2--4--
A|--0h2--0--2-------------------
E|------------------------------
http://www.guitartabcreator.com
Guitar Tab Creator is intended to store guitar tab created through the tool. It currently does not support in-line text editing. Any text you place in here will be lost. If you need to comment on your tab, please use the "Tab Notes" section located below.