Stairway To Heaven (Intro)

(/) Slide Up  (\) Slide Down  (h) Hammer On  (p) Pull Off  (b) Bend (r) Release (v) Vibrato


E|-----------7--9--------9--10--------10--4--------4--2-----------2--------------------------
B|--------5--------5------------5------------3-----------1-----1-----1-----0--1--1-----------
G|-----5--------------5------------5------------2-----------2-----------2--0--2--2-----------
D|--7----------------------------------------------------------------------------------------
A|-------------------------------------------------------------------------0-----------6--5--
E|----------------------------------------------------------------------------2--2--2--------



E|--------------9--------9--10--------10--4--------4--2-----------2-----------------------
B|-----------5-----5------------5------------3-----------1-----1-----1-----0--1--1--------
G|--------5-----------5------------5------------2-----------2-----------2--0--2--2--------
D|-----7----------------------------------------------------------------------------------
A|-------------------------------------------------------------------------0-----------0--
E|--2-------------------------------------------------------------------------2--2--2-----



E|-----------2--4--------4--2--------2----------------------------5--------5--
B|-----------------3-----------1--------0h1-----------1--------1-----0--------
G|--------0-----------2-----------2----------2-----------0--------------0-----
D|-----2----------------------------------------------------2-----------------
A|--1----------------------------------------------0--------------------------
E|----------------------------------------------2-----------------------------



E|--------------4--------4--2--------2--------------------------------------4--2--2--2--
B|-----------1-----3-----------1--------0--1--------------------1--------3-----1--1--1--
G|--------0-----------2-----------0-----------2--------------0--------2--------2--2--2--
D|-----2--------------------------------------------------2--------0-----------3--3--3--
A|--1-----------------------------------------------0--1--------------------------------
E|-----------------------------------------------2--------------------------------------
http://www.guitartabcreator.com
Guitar Tab Creator is intended to store guitar tab created through the tool. It currently does not support in-line text editing. Any text you place in here will be lost. If you need to comment on your tab, please use the "Tab Notes" section located below.