Slipnot! (Part 3)

(/) Slide Up  (\) Slide Down  (h) Hammer On  (p) Pull Off  (b) Bend (r) Release (v) Vibrato


E|-----------------------------9--12--9---------9-------------------------
B|--------5-----------------9------------9---------9---------9------------
G|-----5-----7--5----7--10------------------10--------10--7-----10--7-----
D|--7------------------------------------------------------------------9--
A|------------------------------------------------------------------------
E|------------------------------------------------------------------------



E|-------------11--14--11----------11----------------------------
B|---------11--------------11----------11---------11-------------
G|--9--12----------------------12----------12--9------12--9------
D|-----------------------------------------------------------11--
A|---------------------------------------------------------------
E|---------------------------------------------------------------



E|--2--2-----------------
B|--2--0--13-14--12--10--
G|--2--0-----------------
D|--2--2--13/14--12--11--
A|--2--1-----------------
E|--2--------------------
http://www.guitartabcreator.com
Guitar Tab Creator is intended to store guitar tab created through the tool. It currently does not support in-line text editing. Any text you place in here will be lost. If you need to comment on your tab, please use the "Tab Notes" section located below.