Slipnot! (Part 2)

(/) Slide Up  (\) Slide Down  (h) Hammer On  (p) Pull Off  (b) Bend (r) Release (v) Vibrato


E|---------------------19--16------------------17--14--------------------------
B|-------------12--15----------15------17--14----------13------15--12----------
G|---------12----------------------16----------------------14----------12------
D|--12/14------------------------------------------------------------------14--
A|-----------------------------------------------------------------------------
E|-----------------------------------------------------------------------------



E|----------------------------------------------------14--16--
B|----------------------------------------------------12--14--
G|--14--11----------12--9-----------------------------12--14--
D|----------12-------------10------12--9--------------14--16--
A|--------------12-------------10---------8-----8/10--12--14--
E|-------------------------------------------9--------12--14--



E|-----------------------------------------------
B|--------5--------------5-----------------------
G|-----5-----7--5-----5-----7--4-----------4-----
D|--7--------------7--------------5-----5-----7--
A|-----------------------------------5-----------
E|-----------------------------------------------



E|-----------------7--7--
B|-----------------7--5--
G|-----------------7--5--
D|-----------------7--7--
A|-----------3--5--3--5--
E|--2--4--5-----------2--
http://www.guitartabcreator.com
Guitar Tab Creator is intended to store guitar tab created through the tool. It currently does not support in-line text editing. Any text you place in here will be lost. If you need to comment on your tab, please use the "Tab Notes" section located below.