Slipnot!

(/) Slide Up  (\) Slide Down  (h) Hammer On  (p) Pull Off  (b) Bend (r) Release (v) Vibrato


E|--10--10--10--10------------------------------------
B|--9---9---9---9-------------------------------------
G|--10--10--10--10------------5-----------------------
D|--10--10--10--10---------6-----8--5-----------5-----
A|--6---6---6---6-----4/6--------------4-----4-----6--
E|----------------------------------------5-----------



E|------------------------------7--10--7--------7-----------------------
B|---------------------------7------------7--------7--------7-----------
G|--------5------------5--8------------------8--------8--5-----8--5-----
D|-----6-----8--6----------------------------------------------------7--
A|--6-------------------------------------------------------------------
E|----------------------------------------------------------------------



E|---------------------------------------------------
B|---------------------------------------------------
G|----------7---------------7------------------7-----
D|-------8-----10--8-----8-----10--8-----------------
A|--6/8---------------8---------------6-----6-----8--
E|---------------------------------------7-----------



E|------------------------------9--12--9---------9-------------------------
B|---------------------------9------------9---------9---------9------------
G|--------7-----------7--10------------------10--------10--7-----10--7-----
D|-----8-----10--8------------------------------------------------------9--
A|--8----------------------------------------------------------------------
E|-------------------------------------------------------------------------
http://www.guitartabcreator.com
Guitar Tab Creator is intended to store guitar tab created through the tool. It currently does not support in-line text editing. Any text you place in here will be lost. If you need to comment on your tab, please use the "Tab Notes" section located below.