Scarlett Begonias

(/) Slide Up  (\) Slide Down  (h) Hammer On  (p) Pull Off  (b) Bend (r) Release (v) Vibrato


E|-----9--------------------------------------------------------------
B|-------------------7--5--4--5--7--9--9-10---------------------------
G|--------9p8-----8--------4------------------------------------------
D|--9----------9--------6-----6--9--9--9h11---------------------6--7--
A|----------------------------------------------------4h5p4--7--------
E|-------------------------------------------------4------------------



E|--------------------------------------------------------------------------------------------------
B|--------------------------------------------------------------------------------------------------
G|----------------------------------------------------------------------------------------------11--
D|--------------------2--------------------4--------------------------------------9--9--11--13------
A|-----------0--0--2--------------2--2--4--------------5--5--7-----------7--7--9--------------------
E|--0--0--1--------------0--1--3--------------2--4--6-----------4--6--8-----------------------------



E|--------------
B|------12--10--
G|--11----------
D|--------------
A|--------------
E|--------------



E|----------------------------------------------------
B|----------------------------------------------------
G|----------------------6--------6--9--8--8-----------
D|----------9--7-----7-----9--7--------------9--7-----
A|-----4h7--------7--------------------------------7--
E|--4-------------------------------------------------
http://www.guitartabcreator.com
Guitar Tab Creator is intended to store guitar tab created through the tool. It currently does not support in-line text editing. Any text you place in here will be lost. If you need to comment on your tab, please use the "Tab Notes" section located below.