Saint Stephen Intro

(/) Slide Up  (\) Slide Down  (h) Hammer On  (p) Pull Off  (b) Bend (r) Release (v) Vibrato


E|------------------------------12--11----------------
B|--12--12----9--10--12--10--9----------10----12--12--
G|----------------------------------------------------
D|----------------------------------------------------
A|----------------------------------------------------
E|----------------------------------------------------



E|--------------------12--11------13--13--
B|--9--10--12--10--9----------10----------
G|----------------------------------------
D|----------------------------------------
A|----------------------------------------
E|----------------------------------------



E|--11--12--14--12--11--12--11------14--14--
B|------------------------------12----------
G|------------------------------------------
D|------------------------------------------
A|------------------------------------------
E|------------------------------------------



E|--12--11--12--11----------------------------
B|------------------12--12--10--9--10--9------
G|----------------------------------------11--
D|--------------------------------------------
A|--------------------------------------------
E|--------------------------------------------
http://www.guitartabcreator.com
Guitar Tab Creator is intended to store guitar tab created through the tool. It currently does not support in-line text editing. Any text you place in here will be lost. If you need to comment on your tab, please use the "Tab Notes" section located below.