Run For The Roses

(/) Slide Up  (\) Slide Down  (h) Hammer On  (p) Pull Off  (b) Bend (r) Release (v) Vibrato


E|------------------------
B|------------------------
G|------------------2--4--
D|-------2--4--2/4--------
A|--0/2-------------------
E|------------------------



E|--12----------11---------9-----9------
B|------10----------10--------9-----10--
G|----------11----------9---------------
D|--------------------------------------
A|--------------------------------------
E|--------------------------------------
http://www.guitartabcreator.com
Guitar Tab Creator is intended to store guitar tab created through the tool. It currently does not support in-line text editing. Any text you place in here will be lost. If you need to comment on your tab, please use the "Tab Notes" section located below.