Rosalie McFall

(/) Slide Up  (\) Slide Down  (h) Hammer On  (p) Pull Off  (b) Bend (r) Release (v) Vibrato


E|-------------------------------------------------------------------------------------
B|------------------------------------5-----------------5-----5-----5------------------
G|-------4--4--4h6--4-----------4--6-----6-----4--4--6-----6-----6-----6--4h6p4--------
D|--4h6----------------6-----6--------------6------------------------------------6-----
A|------------------------7---------------------------------------------------------7--
E|-------------------------------------------------------------------------------------



E|-----------------------
B|-----------------------
G|--6--4-----4--6--------
D|--------6--------6-----
A|--------------------7--
E|-----------------------
http://www.guitartabcreator.com
Guitar Tab Creator is intended to store guitar tab created through the tool. It currently does not support in-line text editing. Any text you place in here will be lost. If you need to comment on your tab, please use the "Tab Notes" section located below.