Ripple

(/) Slide Up  (\) Slide Down  (h) Hammer On  (p) Pull Off  (b) Bend (r) Release (v) Vibrato


E|-----------------0--------------------5----------5---------------------0--
B|-----------------0--------0-----0-----5----------5---------------------0--
G|-----------------0--0--0-----2-----0--5-------0--5--0h2--0-------------0--
D|-----------0-----0--------------------5--0h2-----5----------2--0h2--0--0--
A|--0--0--1--------0--------------------5----------5---------------------0--
E|--------------0--0--------------------5----------5---------------------0--



E|--------------------0--------------------5-------0--------7--------------0--
B|--------------------0--------0-----0--1--5-------0--0--1--7--------------0--
G|--------------------0--0--0-----2--------5--0h2--0--------7-----0--0--2--0--
D|--------------0-----0--------------------5-------0--------7--2-----------0--
A|--0--0--0--1--------0--------------------5-------0--------7--------------0--
E|-----------------0--0--------------------5-------0--------7--------------0--
http://www.guitartabcreator.com
Guitar Tab Creator is intended to store guitar tab created through the tool. It currently does not support in-line text editing. Any text you place in here will be lost. If you need to comment on your tab, please use the "Tab Notes" section located below.