Ramble On Rose

(/) Slide Up  (\) Slide Down  (h) Hammer On  (p) Pull Off  (b) Bend (r) Release (v) Vibrato


E|-----------------------4--4--------------2--
B|-----------------------3--3--------------0--
G|-----------------------2--2--------------1--
D|--0-----0--------0--0--0--0--0-----0--1--2--
A|-----0-----0--------------------0--------0--
E|--------------2--------------------------1--



E|--------------------------------------4--
B|--------------------------------------3--
G|--------------------------------------2--
D|--0-----------------------------------0--
A|-----2--2--0-----------------------0-----
E|--------------2--2--0--2--2--2--2--------
http://www.guitartabcreator.com
Guitar Tab Creator is intended to store guitar tab created through the tool. It currently does not support in-line text editing. Any text you place in here will be lost. If you need to comment on your tab, please use the "Tab Notes" section located below.