Playin' In The Band

(/) Slide Up  (\) Slide Down  (h) Hammer On  (p) Pull Off  (b) Bend (r) Release (v) Vibrato


E|------------------------------------------------
B|--------3--------3--------3--3--3--3------------
G|-----2--------2--------2------------------------
D|--0--------0--------0------------------------0--
A|-----------------------------1--1--0------------
E|--------------------------------------2h4p2-----



E|--7--7--5--4h5p4--------
B|------------------5--3--
G|------------------------
D|------------------------
A|------------------------
E|------------------------



E|--14-16--14--12-----------7---------------------------------------
B|--10/12--10--7-------5/7-----7p5----------------------------------
G|----------------------------------7--7----------------------------
D|-------------------------------------------------0--4p2--0-----0--
A|------------------------------------------------------------0-----
E|--------------------------------------------2h4-------------------



E|--2h4--4--5--2h4--4--2--2h4--4--2--4-----
B|--------------------------------------3--
G|-----------------------------------------
D|-----------------------------------------
A|-----------------------------------------
E|-----------------------------------------



E|---------------------------------------------------------------2--------------
B|----------1--------------------------------------1----------3-----3--1--3--3--
G|--0h2--2-----0h2--2--0--0h2--2--0--2-----0h2--2-----0h2--2--------------------
D|--------------------------------------0---------------------------------------
A|------------------------------------------------------------------------------
E|------------------------------------------------------------------------------
http://www.guitartabcreator.com
Guitar Tab Creator is intended to store guitar tab created through the tool. It currently does not support in-line text editing. Any text you place in here will be lost. If you need to comment on your tab, please use the "Tab Notes" section located below.