The Other One

(/) Slide Up  (\) Slide Down  (h) Hammer On  (p) Pull Off  (b) Bend (r) Release (v) Vibrato


E|----------------------------------12--11------12--11--12--14--
B|-----9---------9-----9--10----10----------10------------------
G|--9-----11--9-----9-------------------------------------------
D|--------------------------------------------------------------
A|--------------------------------------------------------------
E|--------------------------------------------------------------



E|--14--12--11-------------12--------------------------------------
B|--------------12--11h12--------------10--12--12--10------10------
G|-----------------------------------------------------12------12--
D|-------------------------------9h11------------------------------
A|-----------------------------------------------------------------
E|-----------------------------------------------------------------
http://www.guitartabcreator.com
Guitar Tab Creator is intended to store guitar tab created through the tool. It currently does not support in-line text editing. Any text you place in here will be lost. If you need to comment on your tab, please use the "Tab Notes" section located below.