One More Saturday Night

(/) Slide Up  (\) Slide Down  (h) Hammer On  (p) Pull Off  (b) Bend (r) Release (v) Vibrato


E|--------------------------------------------------------------------------------------------------
B|--------11--8------------------------11--8------------------------11--8-----------------9---------
G|---------------9------------8---------------9------------8---------------9--11p9--9h11-----11-----
D|--2/10------------10--2/10-----2/10------------10--2/10-----2/10----------------------------------
A|--------------------------------------------------------------------------------------------------
E|--------------------------------------------------------------------------------------------------



E|-----10-------------------
B|-----8--------------------
G|---------10/11--10--8-----
D|-----------------------9--
A|--------------------------
E|--5-----------------------
http://www.guitartabcreator.com
Guitar Tab Creator is intended to store guitar tab created through the tool. It currently does not support in-line text editing. Any text you place in here will be lost. If you need to comment on your tab, please use the "Tab Notes" section located below.