Oh Babe it Ain't No Lie (Verse)

(/) Slide Up  (\) Slide Down  (h) Hammer On  (p) Pull Off  (b) Bend (r) Release (v) Vibrato


E|--------------------5-------8-----7--2--------2--------2--2--2--2-----3--------3--3--------3--
B|-----------------0----------7-----6-----------0-----0-----0--------3--1-----1-----1-----1-----
G|--------------0--------5/6-----5-----------0--1--1--------1-----------2--2--------2--2--------
D|----------------------------------------2-----2-----------------------3-----------3-----------
A|--1--0-------------------------------1--------------------------------1-----------1-----------
E|--------2--0----------------------------------2-----------------------------------------------



E|---------------------------2-----------2-----2--3-----4--2-----------------------------
B|-------1--3-------1--3--1--1--------1-----1-----------------1-----0--1--3--1--------1--
G|--0h2--------0h2-----------0-----0-----------------2-----------0-----------------0-----
D|---------------------------2--2-----------------------------------------------2--------
A|---------------------------1-----------------------------------------------1-----------
E|---------------------------------------------------------------------------------------
http://www.guitartabcreator.com
Guitar Tab Creator is intended to store guitar tab created through the tool. It currently does not support in-line text editing. Any text you place in here will be lost. If you need to comment on your tab, please use the "Tab Notes" section located below.