Oh Babe it Ain't No Lie (Intro)

(/) Slide Up  (\) Slide Down  (h) Hammer On  (p) Pull Off  (b) Bend (r) Release (v) Vibrato


E|--2--------2--2--------2----------------------
B|--------1-----------1-----1-------3--1-----1--
G|-----0-----------0-----------0h2--------2-----
D|--2-----------2-----------3----------3--------
A|----------------------------------------------
E|----------------------------------------------



E|--------2--------2--------------------------------------------
B|--1--3--------1-----------1--------3--1--------1--1--------1--
G|-----------0-----------2--------4-----------0-----------0-----
D|--------2-----------3--------5-----------2-----------2--------
A|--------------------------------------1-----------1-----------
E|--------------------------------------------------------------
http://www.guitartabcreator.com
Guitar Tab Creator is intended to store guitar tab created through the tool. It currently does not support in-line text editing. Any text you place in here will be lost. If you need to comment on your tab, please use the "Tab Notes" section located below.