Lucy In The Sky With Diamonds

(/) Slide Up  (\) Slide Down  (h) Hammer On  (p) Pull Off  (b) Bend (r) Release (v) Vibrato


E|--------2-----2-----------2-------------
B|--------------------------------3\2-----
G|-----2-----0-----2-----2-------------2--
D|--2-----------------4--------3----------
A|----------------------------------------
E|----------------------------------------



E|--------2-----2-----------2-----------------
B|-----------------------------1-----1--------
G|-----2-----0-----2-----2--------2-----2--4--
D|--2-----------------4-----------------------
A|--------------------------------------------
E|--------------------------------------------



E|--------2-----2-----------------------------------
B|--------------------------------------------------
G|-----2-----0-----2--------------------------------
D|--2--------------------4-----4-----4--0--3--0--4--
A|--------------------2-----2-----2-----------------
E|--------------------------------------------------
http://www.guitartabcreator.com
Guitar Tab Creator is intended to store guitar tab created through the tool. It currently does not support in-line text editing. Any text you place in here will be lost. If you need to comment on your tab, please use the "Tab Notes" section located below.